  0
SECTION
  2
HEADER
  9
$ACADVER
  1
AC1006
  0
ENDSEC
  0
SECTION
  2
TABLES
  0
TABLE
  2
LTYPE
 70
    25
  0
LTYPE
  2
CONTINUOUS
 70
    64
  3
Solid line
 72
    64
 73
     0
 40
0.000000
  0
LTYPE
  2
DASHDOT
 70
    64
  3
__ . __ . __ . __ . __ . __ . __ . __ . __ . __
 72
    65
 73
     4
 40
1.000000
 49
0.500000
 49
-0.250000
 49
0.000000
 49
-0.250000
  0
LTYPE
  2
DASHED
 70
    64
  3
__ __ __ __ __ __ __ __ __ __ __ __ __ __ __ __
 72
    65
 73
     2
 40
0.750000
 49
0.500000
 49
-0.250000
  0
LTYPE
  2
DIVIDE
 70
    64
  3
____ . . ____ . . ____ . . ____ . . ____ . . __
 72
    65
 73
     6
 40
1.250000
 49
0.500000
 49
-0.250000
 49
0.000000
 49
-0.250000
 49
0.000000
 49
-0.250000
  0
LTYPE
  2
DOT
 70
    64
  3
. . . . . . . . . . . . . . . . . . . . . . . . 
 72
    65
 73
     2
 40
0.250000
 49
0.000000
 49
-0.250000
  0
ENDTAB
  0
ENDSEC
  0
SECTION
  2
ENTITIES
  0
CIRCLE
  8
1
 62
     7
  6
CONTINUOUS
 10
1.996976
 20
2.499829
 30
0.000000
 40
0.156109
  0
LINE
  8
1
 62
     7
  6
CONTINUOUS
 10
1.500000
 20
1.000000
 30
0.000000
 11
1.500000
 21
2.000000
 31
0.000000
  0
LINE
  8
1
 62
     7
  6
CONTINUOUS
 10
17.000000
 20
1.000000
 30
0.000000
 11
1.500000
 21
1.000000
 31
0.000000
  0
LINE
  8
1
 62
     7
  6
CONTINUOUS
 10
17.000000
 20
2.000000
 30
0.000000
 11
17.000000
 21
1.000000
 31
0.000000
  0
LINE
  8
1
 62
     7
  6
CONTINUOUS
 10
17.500000
 20
2.000000
 30
0.000000
 11
17.000000
 21
2.000000
 31
0.000000
  0
LINE
  8
1
 62
     7
  6
CONTINUOUS
 10
17.500000
 20
6.000000
 30
0.000000
 11
17.500000
 21
2.000000
 31
0.000000
  0
LINE
  8
1
 62
     7
  6
CONTINUOUS
 10
17.000000
 20
6.000000
 30
0.000000
 11
17.500000
 21
6.000000
 31
0.000000
  0
LINE
  8
1
 62
     7
  6
CONTINUOUS
 10
17.000000
 20
7.000000
 30
0.000000
 11
17.000000
 21
6.000000
 31
0.000000
  0
LINE
  8
1
 62
     7
  6
CONTINUOUS
 10
1.500000
 20
7.000000
 30
0.000000
 11
17.000000
 21
7.000000
 31
0.000000
  0
LINE
  8
1
 62
     7
  6
CONTINUOUS
 10
1.500000
 20
6.000000
 30
0.000000
 11
1.500000
 21
7.000000
 31
0.000000
  0
LINE
  8
1
 62
     7
  6
CONTINUOUS
 10
1.000000
 20
6.000000
 30
0.000000
 11
1.500000
 21
6.000000
 31
0.000000
  0
LINE
  8
1
 62
     7
  6
CONTINUOUS
 10
1.000000
 20
2.000000
 30
0.000000
 11
1.000000
 21
6.000000
 31
0.000000
  0
LINE
  8
1
 62
     7
  6
CONTINUOUS
 10
1.500000
 20
2.000000
 30
0.000000
 11
1.000000
 21
2.000000
 31
0.000000
  0
CIRCLE
  8
1
 62
     7
  6
CONTINUOUS
 10
1.995571
 20
5.500485
 30
0.000000
 40
0.156109
  0
LINE
  8
1
 62
     7
  6
CONTINUOUS
 10
17.000000
 20
7.500000
 30
0.000000
 11
1.500000
 21
7.500000
 31
0.000000
  0
LINE
  8
1
 62
     7
  6
CONTINUOUS
 10
17.000000
 20
8.500000
 30
0.000000
 11
17.000000
 21
7.500000
 31
0.000000
  0
LINE
  8
1
 62
     7
  6
CONTINUOUS
 10
17.500000
 20
8.500000
 30
0.000000
 11
17.000000
 21
8.500000
 31
0.000000
  0
LINE
  8
1
 62
     7
  6
CONTINUOUS
 10
17.500000
 20
12.500000
 30
0.000000
 11
17.500000
 21
8.500000
 31
0.000000
  0
LINE
  8
1
 62
     7
  6
CONTINUOUS
 10
17.000000
 20
12.500000
 30
0.000000
 11
17.500000
 21
12.500000
 31
0.000000
  0
LINE
  8
1
 62
     7
  6
CONTINUOUS
 10
17.000000
 20
13.500000
 30
0.000000
 11
17.000000
 21
12.500000
 31
0.000000
  0
LINE
  8
1
 62
     7
  6
CONTINUOUS
 10
1.500000
 20
13.500000
 30
0.000000
 11
17.000000
 21
13.500000
 31
0.000000
  0
LINE
  8
1
 62
     7
  6
CONTINUOUS
 10
1.500000
 20
12.500000
 30
0.000000
 11
1.500000
 21
13.500000
 31
0.000000
  0
LINE
  8
1
 62
     7
  6
CONTINUOUS
 10
1.000000
 20
12.500000
 30
0.000000
 11
1.500000
 21
12.500000
 31
0.000000
  0
LINE
  8
1
 62
     7
  6
CONTINUOUS
 10
1.000000
 20
8.500000
 30
0.000000
 11
1.000000
 21
12.500000
 31
0.000000
  0
LINE
  8
1
 62
     7
  6
CONTINUOUS
 10
1.500000
 20
8.500000
 30
0.000000
 11
1.000000
 21
8.500000
 31
0.000000
  0
LINE
  8
1
 62
     7
  6
CONTINUOUS
 10
1.500000
 20
7.500000
 30
0.000000
 11
1.500000
 21
8.500000
 31
0.000000
  0
CIRCLE
  8
1
 62
     7
  6
CONTINUOUS
 10
1.996976
 20
8.999829
 30
0.000000
 40
0.156109
  0
CIRCLE
  8
1
 62
     7
  6
CONTINUOUS
 10
1.995571
 20
12.000485
 30
0.000000
 40
0.156109
  0
LINE
  8
1
 62
     7
  6
CONTINUOUS
 10
0.984982
 20
16.796169
 30
0.000000
 11
0.984982
 21
14.236171
 31
0.000000
  0
LINE
  8
1
 62
     7
  6
CONTINUOUS
 10
15.544979
 20
16.796169
 30
0.000000
 11
0.984982
 21
16.796169
 31
0.000000
  0
LINE
  8
1
 62
     7
  6
CONTINUOUS
 10
15.544979
 20
14.236171
 30
0.000000
 11
15.544979
 21
16.796169
 31
0.000000
  0
LINE
  8
1
 62
     7
  6
CONTINUOUS
 10
0.984982
 20
14.236171
 30
0.000000
 11
15.544979
 21
14.236171
 31
0.000000
  0
CIRCLE
  8
1
 62
     7
  6
CONTINUOUS
 10
1.575518
 20
15.516069
 30
0.000000
 40
0.157421
  0
LINE
  8
1
 62
     7
  6
CONTINUOUS
 10
0.984982
 20
20.046169
 30
0.000000
 11
0.984982
 21
17.486172
 31
0.000000
  0
LINE
  8
1
 62
     7
  6
CONTINUOUS
 10
15.544979
 20
20.046169
 30
0.000000
 11
0.984982
 21
20.046169
 31
0.000000
  0
LINE
  8
1
 62
     7
  6
CONTINUOUS
 10
15.544979
 20
17.486172
 30
0.000000
 11
15.544979
 21
20.046169
 31
0.000000
  0
LINE
  8
1
 62
     7
  6
CONTINUOUS
 10
0.984982
 20
17.486172
 30
0.000000
 11
15.544979
 21
17.486172
 31
0.000000
  0
CIRCLE
  8
1
 62
     7
  6
CONTINUOUS
 10
1.575518
 20
18.766069
 30
0.000000
 40
0.157421
  0
LINE
  8
1
 62
     7
  6
CONTINUOUS
 10
0.984982
 20
23.296169
 30
0.000000
 11
0.984982
 21
20.736172
 31
0.000000
  0
LINE
  8
1
 62
     7
  6
CONTINUOUS
 10
15.544979
 20
23.296169
 30
0.000000
 11
0.984982
 21
23.296169
 31
0.000000
  0
LINE
  8
1
 62
     7
  6
CONTINUOUS
 10
15.544979
 20
20.736172
 30
0.000000
 11
15.544979
 21
23.296169
 31
0.000000
  0
LINE
  8
1
 62
     7
  6
CONTINUOUS
 10
0.984982
 20
20.736172
 30
0.000000
 11
15.544979
 21
20.736172
 31
0.000000
  0
CIRCLE
  8
1
 62
     7
  6
CONTINUOUS
 10
1.575518
 20
22.016069
 30
0.000000
 40
0.157421
  0
ARC
  8
1
 62
     7
  6
CONTINUOUS
 10
1.219347
 20
24.260881
 30
0.000000
 40
0.250006
 50
180.001316
 51
269.998664
  0
LINE
  8
1
 62
     7
  6
CONTINUOUS
 10
0.969341
 20
24.260876
 30
0.000000
 11
0.969341
 21
25.510876
 31
0.000000
  0
LINE
  8
1
 62
     7
  6
CONTINUOUS
 10
0.969341
 20
25.510876
 30
0.000000
 11
4.969341
 21
27.510876
 31
0.000000
  0
LINE
  8
1
 62
     7
  6
CONTINUOUS
 10
4.969341
 20
27.510876
 30
0.000000
 11
8.910324
 21
27.510876
 31
0.000000
  0
ARC
  8
1
 62
     7
  6
CONTINUOUS
 10
8.910325
 20
27.260876
 30
0.000000
 40
0.250000
 50
296.565248
 51
450.000216
  0
LINE
  8
1
 62
     7
  6
CONTINUOUS
 10
9.022129
 20
27.037270
 30
0.000000
 11
5.969341
 21
25.510876
 31
0.000000
  0
LINE
  8
1
 62
     7
  6
CONTINUOUS
 10
5.969341
 20
25.510876
 30
0.000000
 11
5.969341
 21
24.260876
 31
0.000000
  0
ARC
  8
1
 62
     7
  6
CONTINUOUS
 10
5.719336
 20
24.260881
 30
0.000000
 40
0.250006
 50
270.001314
 51
359.998689
  0
LINE
  8
1
 62
     7
  6
CONTINUOUS
 10
5.719341
 20
24.010876
 30
0.000000
 11
1.219341
 21
24.010876
 31
0.000000
  0
CIRCLE
  8
1
 62
     7
  6
CONTINUOUS
 10
1.723415
 20
24.761484
 30
0.000000
 40
0.156173
  0
CIRCLE
  8
1
 62
     7
  6
CONTINUOUS
 10
5.223652
 20
24.761696
 30
0.000000
 40
0.156173
  0
ARC
  8
1
 62
     7
  6
CONTINUOUS
 10
6.578555
 20
24.259773
 30
0.000000
 40
0.249999
 50
116.565146
 51
208.626529
  0
LINE
  8
1
 62
     7
  6
CONTINUOUS
 10
6.359116
 20
24.139999
 30
0.000000
 11
6.394539
 21
24.135265
 31
0.000000
  0
LINE
  8
1
 62
     7
  6
CONTINUOUS
 10
6.394539
 20
24.135265
 30
0.000000
 11
12.042992
 21
24.134979
 31
0.000000
  0
LINE
  8
1
 62
     7
  6
CONTINUOUS
 10
12.042992
 20
24.134979
 30
0.000000
 11
16.019539
 21
24.134773
 31
0.000000
  0
LINE
  8
1
 62
     7
  6
CONTINUOUS
 10
16.019539
 20
24.134773
 30
0.000000
 11
17.144539
 21
24.134773
 31
0.000000
  0
LINE
  8
1
 62
     7
  6
CONTINUOUS
 10
17.144539
 20
24.134773
 30
0.000000
 11
17.179512
 21
24.140205
 31
0.000000
  0
ARC
  8
1
 62
     7
  6
CONTINUOUS
 10
16.961506
 20
24.260403
 30
0.000000
 40
0.248946
 50
331.129933
 51
418.437417
  0
LINE
  8
1
 62
     7
  6
CONTINUOUS
 10
17.091812
 20
24.472523
 30
0.000000
 11
14.019539
 21
26.009773
 31
0.000000
  0
LINE
  8
1
 62
     7
  6
CONTINUOUS
 10
14.019539
 20
26.009773
 30
0.000000
 11
14.019539
 21
27.259773
 31
0.000000
  0
ARC
  8
1
 62
     7
  6
CONTINUOUS
 10
13.769545
 20
27.259779
 30
0.000000
 40
0.249994
 50
359.998689
 51
450.001309
  0
LINE
  8
1
 62
     7
  6
CONTINUOUS
 10
13.769539
 20
27.509773
 30
0.000000
 11
9.769539
 21
27.509773
 31
0.000000
  0
ARC
  8
1
 62
     7
  6
CONTINUOUS
 10
9.769541
 20
27.259771
 30
0.000000
 40
0.250002
 50
90.000435
 51
179.999558
  0
LINE
  8
1
 62
     7
  6
CONTINUOUS
 10
9.519539
 20
27.259773
 30
0.000000
 11
9.519539
 21
26.009773
 31
0.000000
  0
LINE
  8
1
 62
     7
  6
CONTINUOUS
 10
9.519539
 20
26.009773
 30
0.000000
 11
6.466751
 21
24.483379
 31
0.000000
  0
LINE
  8
1
 62
     7
  6
CONTINUOUS
 10
6.750000
 20
34.250000
 30
0.000000
 11
6.750000
 21
28.250000
 31
0.000000
  0
LINE
  8
1
 62
     7
  6
CONTINUOUS
 10
4.750000
 20
34.250000
 30
0.000000
 11
6.750000
 21
34.250000
 31
0.000000
  0
LINE
  8
1
 62
     7
  6
CONTINUOUS
 10
4.750000
 20
33.250000
 30
0.000000
 11
4.750000
 21
34.250000
 31
0.000000
  0
LINE
  8
1
 62
     7
  6
CONTINUOUS
 10
4.250000
 20
33.250000
 30
0.000000
 11
4.750000
 21
33.250000
 31
0.000000
  0
LINE
  8
1
 62
     7
  6
CONTINUOUS
 10
4.250000
 20
29.250000
 30
0.000000
 11
4.250000
 21
33.250000
 31
0.000000
  0
LINE
  8
1
 62
     7
  6
CONTINUOUS
 10
4.750000
 20
29.250000
 30
0.000000
 11
4.250000
 21
29.250000
 31
0.000000
  0
LINE
  8
1
 62
     7
  6
CONTINUOUS
 10
4.750000
 20
28.250000
 30
0.000000
 11
4.750000
 21
29.250000
 31
0.000000
  0
LINE
  8
1
 62
     7
  6
CONTINUOUS
 10
6.750000
 20
28.250000
 30
0.000000
 11
4.750000
 21
28.250000
 31
0.000000
  0
LINE
  8
1
 62
     7
  6
CONTINUOUS
 10
9.750000
 20
28.250000
 30
0.000000
 11
7.750000
 21
28.250000
 31
0.000000
  0
LINE
  8
1
 62
     7
  6
CONTINUOUS
 10
9.750000
 20
34.250000
 30
0.000000
 11
9.750000
 21
28.250000
 31
0.000000
  0
LINE
  8
1
 62
     7
  6
CONTINUOUS
 10
7.750000
 20
34.250000
 30
0.000000
 11
9.750000
 21
34.250000
 31
0.000000
  0
LINE
  8
1
 62
     7
  6
CONTINUOUS
 10
7.750000
 20
33.250000
 30
0.000000
 11
7.750000
 21
34.250000
 31
0.000000
  0
LINE
  8
1
 62
     7
  6
CONTINUOUS
 10
7.250000
 20
33.250000
 30
0.000000
 11
7.750000
 21
33.250000
 31
0.000000
  0
LINE
  8
1
 62
     7
  6
CONTINUOUS
 10
7.250000
 20
29.250000
 30
0.000000
 11
7.250000
 21
33.250000
 31
0.000000
  0
LINE
  8
1
 62
     7
  6
CONTINUOUS
 10
7.750000
 20
29.250000
 30
0.000000
 11
7.250000
 21
29.250000
 31
0.000000
  0
LINE
  8
1
 62
     7
  6
CONTINUOUS
 10
7.750000
 20
28.250000
 30
0.000000
 11
7.750000
 21
29.250000
 31
0.000000
  0
CIRCLE
  8
1
 62
     7
  6
CONTINUOUS
 10
8.247134
 20
29.750654
 30
0.000000
 40
0.156108
  0
LINE
  8
1
 62
     7
  6
CONTINUOUS
 10
10.250000
 20
29.250000
 30
0.000000
 11
10.250000
 21
33.250000
 31
0.000000
  0
LINE
  8
1
 62
     7
  6
CONTINUOUS
 10
10.250000
 20
33.250000
 30
0.000000
 11
10.750000
 21
33.250000
 31
0.000000
  0
LINE
  8
1
 62
     7
  6
CONTINUOUS
 10
10.750000
 20
33.250000
 30
0.000000
 11
10.750000
 21
34.250000
 31
0.000000
  0
LINE
  8
1
 62
     7
  6
CONTINUOUS
 10
10.750000
 20
34.250000
 30
0.000000
 11
12.750000
 21
34.250000
 31
0.000000
  0
LINE
  8
1
 62
     7
  6
CONTINUOUS
 10
12.750000
 20
34.250000
 30
0.000000
 11
12.750000
 21
28.250000
 31
0.000000
  0
LINE
  8
1
 62
     7
  6
CONTINUOUS
 10
12.750000
 20
28.250000
 30
0.000000
 11
10.750000
 21
28.250000
 31
0.000000
  0
LINE
  8
1
 62
     7
  6
CONTINUOUS
 10
10.750000
 20
28.250000
 30
0.000000
 11
10.750000
 21
29.250000
 31
0.000000
  0
LINE
  8
1
 62
     7
  6
CONTINUOUS
 10
10.750000
 20
29.250000
 30
0.000000
 11
10.250000
 21
29.250000
 31
0.000000
  0
CIRCLE
  8
1
 62
     7
  6
CONTINUOUS
 10
11.247134
 20
29.750654
 30
0.000000
 40
0.156108
  0
LINE
  8
1
 62
     7
  6
CONTINUOUS
 10
13.250000
 20
29.250000
 30
0.000000
 11
13.250000
 21
33.250000
 31
0.000000
  0
LINE
  8
1
 62
     7
  6
CONTINUOUS
 10
13.250000
 20
33.250000
 30
0.000000
 11
13.750000
 21
33.250000
 31
0.000000
  0
LINE
  8
1
 62
     7
  6
CONTINUOUS
 10
13.750000
 20
33.250000
 30
0.000000
 11
13.750000
 21
34.250000
 31
0.000000
  0
LINE
  8
1
 62
     7
  6
CONTINUOUS
 10
13.750000
 20
34.250000
 30
0.000000
 11
15.750000
 21
34.250000
 31
0.000000
  0
LINE
  8
1
 62
     7
  6
CONTINUOUS
 10
15.750000
 20
34.250000
 30
0.000000
 11
15.750000
 21
28.250000
 31
0.000000
  0
LINE
  8
1
 62
     7
  6
CONTINUOUS
 10
15.750000
 20
28.250000
 30
0.000000
 11
13.750000
 21
28.250000
 31
0.000000
  0
LINE
  8
1
 62
     7
  6
CONTINUOUS
 10
13.750000
 20
28.250000
 30
0.000000
 11
13.750000
 21
29.250000
 31
0.000000
  0
LINE
  8
1
 62
     7
  6
CONTINUOUS
 10
13.750000
 20
29.250000
 30
0.000000
 11
13.250000
 21
29.250000
 31
0.000000
  0
CIRCLE
  8
1
 62
     7
  6
CONTINUOUS
 10
14.247134
 20
29.750654
 30
0.000000
 40
0.156108
  0
LINE
  8
1
 62
     7
  6
CONTINUOUS
 10
16.250000
 20
29.250000
 30
0.000000
 11
16.250000
 21
33.250000
 31
0.000000
  0
LINE
  8
1
 62
     7
  6
CONTINUOUS
 10
16.250000
 20
33.250000
 30
0.000000
 11
16.750000
 21
33.250000
 31
0.000000
  0
LINE
  8
1
 62
     7
  6
CONTINUOUS
 10
16.750000
 20
33.250000
 30
0.000000
 11
16.750000
 21
34.250000
 31
0.000000
  0
LINE
  8
1
 62
     7
  6
CONTINUOUS
 10
16.750000
 20
34.250000
 30
0.000000
 11
18.750000
 21
34.250000
 31
0.000000
  0
LINE
  8
1
 62
     7
  6
CONTINUOUS
 10
18.750000
 20
34.250000
 30
0.000000
 11
18.750000
 21
28.250000
 31
0.000000
  0
LINE
  8
1
 62
     7
  6
CONTINUOUS
 10
18.750000
 20
28.250000
 30
0.000000
 11
16.750000
 21
28.250000
 31
0.000000
  0
LINE
  8
1
 62
     7
  6
CONTINUOUS
 10
16.750000
 20
28.250000
 30
0.000000
 11
16.750000
 21
29.250000
 31
0.000000
  0
LINE
  8
1
 62
     7
  6
CONTINUOUS
 10
16.750000
 20
29.250000
 30
0.000000
 11
16.250000
 21
29.250000
 31
0.000000
  0
CIRCLE
  8
1
 62
     7
  6
CONTINUOUS
 10
17.247135
 20
29.750654
 30
0.000000
 40
0.156108
  0
LINE
  8
1
 62
     7
  6
CONTINUOUS
 10
19.250000
 20
29.250000
 30
0.000000
 11
19.250000
 21
33.250000
 31
0.000000
  0
LINE
  8
1
 62
     7
  6
CONTINUOUS
 10
19.250000
 20
33.250000
 30
0.000000
 11
19.750000
 21
33.250000
 31
0.000000
  0
LINE
  8
1
 62
     7
  6
CONTINUOUS
 10
19.750000
 20
33.250000
 30
0.000000
 11
19.750000
 21
34.250000
 31
0.000000
  0
LINE
  8
1
 62
     7
  6
CONTINUOUS
 10
19.750000
 20
34.250000
 30
0.000000
 11
21.750000
 21
34.250000
 31
0.000000
  0
LINE
  8
1
 62
     7
  6
CONTINUOUS
 10
21.750000
 20
34.250000
 30
0.000000
 11
21.750000
 21
28.250000
 31
0.000000
  0
LINE
  8
1
 62
     7
  6
CONTINUOUS
 10
21.750000
 20
28.250000
 30
0.000000
 11
19.750000
 21
28.250000
 31
0.000000
  0
LINE
  8
1
 62
     7
  6
CONTINUOUS
 10
19.750000
 20
28.250000
 30
0.000000
 11
19.750000
 21
29.250000
 31
0.000000
  0
LINE
  8
1
 62
     7
  6
CONTINUOUS
 10
19.750000
 20
29.250000
 30
0.000000
 11
19.250000
 21
29.250000
 31
0.000000
  0
CIRCLE
  8
1
 62
     7
  6
CONTINUOUS
 10
20.247135
 20
29.750654
 30
0.000000
 40
0.156108
  0
LINE
  8
1
 62
     7
  6
CONTINUOUS
 10
22.250000
 20
29.250000
 30
0.000000
 11
22.250000
 21
33.250000
 31
0.000000
  0
LINE
  8
1
 62
     7
  6
CONTINUOUS
 10
22.250000
 20
33.250000
 30
0.000000
 11
22.750000
 21
33.250000
 31
0.000000
  0
LINE
  8
1
 62
     7
  6
CONTINUOUS
 10
22.750000
 20
33.250000
 30
0.000000
 11
22.750000
 21
34.250000
 31
0.000000
  0
LINE
  8
1
 62
     7
  6
CONTINUOUS
 10
22.750000
 20
34.250000
 30
0.000000
 11
24.750000
 21
34.250000
 31
0.000000
  0
LINE
  8
1
 62
     7
  6
CONTINUOUS
 10
24.750000
 20
34.250000
 30
0.000000
 11
24.750000
 21
28.250000
 31
0.000000
  0
LINE
  8
1
 62
     7
  6
CONTINUOUS
 10
24.750000
 20
28.250000
 30
0.000000
 11
22.750000
 21
28.250000
 31
0.000000
  0
LINE
  8
1
 62
     7
  6
CONTINUOUS
 10
22.750000
 20
28.250000
 30
0.000000
 11
22.750000
 21
29.250000
 31
0.000000
  0
LINE
  8
1
 62
     7
  6
CONTINUOUS
 10
22.750000
 20
29.250000
 30
0.000000
 11
22.250000
 21
29.250000
 31
0.000000
  0
CIRCLE
  8
1
 62
     7
  6
CONTINUOUS
 10
23.247135
 20
29.750654
 30
0.000000
 40
0.156108
  0
LINE
  8
1
 62
     7
  6
CONTINUOUS
 10
30.000000
 20
28.250000
 30
0.000000
 11
25.500000
 21
28.250000
 31
0.000000
  0
LINE
  8
1
 62
     7
  6
CONTINUOUS
 10
30.000000
 20
32.250000
 30
0.000000
 11
30.000000
 21
28.250000
 31
0.000000
  0
ARC
  8
1
 62
     7
  6
CONTINUOUS
 10
29.749998
 20
32.250000
 30
0.000000
 40
0.250000
 50
0.000000
 51
89.999560
  0
LINE
  8
1
 62
     7
  6
CONTINUOUS
 10
25.750000
 20
32.500000
 30
0.000000
 11
29.750000
 21
32.500000
 31
0.000000
  0
ARC
  8
1
 62
     7
  6
CONTINUOUS
 10
25.750000
 20
32.250000
 30
0.000000
 40
0.249999
 50
89.999997
 51
170.000119
  0
ARC
  8
1
 62
     7
  6
CONTINUOUS
 10
713.734314
 20
29.625000
 30
0.000000
 40
688.235687
 50
179.777849
 51
180.114474
  0
CIRCLE
  8
1
 62
     7
  6
CONTINUOUS
 10
26.246164
 20
28.500072
 30
0.000000
 40
0.124888
  0
LINE
  8
1
 62
     7
  6
CONTINUOUS
 10
27.469341
 20
27.510876
 30
0.000000
 11
31.410324
 21
27.510876
 31
0.000000
  0
ARC
  8
1
 62
     7
  6
CONTINUOUS
 10
31.410324
 20
27.260876
 30
0.000000
 40
0.250000
 50
296.565444
 51
449.999997
  0
LINE
  8
1
 62
     7
  6
CONTINUOUS
 10
31.522129
 20
27.037270
 30
0.000000
 11
28.469341
 21
25.510876
 31
0.000000
  0
LINE
  8
1
 62
     7
  6
CONTINUOUS
 10
28.469341
 20
25.510876
 30
0.000000
 11
28.469341
 21
24.260876
 31
0.000000
  0
ARC
  8
1
 62
     7
  6
CONTINUOUS
 10
28.219336
 20
24.260881
 30
0.000000
 40
0.250006
 50
270.001314
 51
359.998689
  0
LINE
  8
1
 62
     7
  6
CONTINUOUS
 10
28.219341
 20
24.010876
 30
0.000000
 11
23.719341
 21
24.010876
 31
0.000000
  0
ARC
  8
1
 62
     7
  6
CONTINUOUS
 10
23.719347
 20
24.260881
 30
0.000000
 40
0.250006
 50
180.001316
 51
269.998691
  0
LINE
  8
1
 62
     7
  6
CONTINUOUS
 10
23.469341
 20
24.260876
 30
0.000000
 11
23.469341
 21
25.510876
 31
0.000000
  0
LINE
  8
1
 62
     7
  6
CONTINUOUS
 10
23.469341
 20
25.510876
 30
0.000000
 11
27.469341
 21
27.510876
 31
0.000000
  0
CIRCLE
  8
1
 62
     7
  6
CONTINUOUS
 10
29.246174
 20
28.499918
 30
0.000000
 40
0.124888
  0
LINE
  8
1
 62
     7
  6
CONTINUOUS
 10
35.000000
 20
28.250000
 30
0.000000
 11
30.500000
 21
28.250000
 31
0.000000
  0
LINE
  8
1
 62
     7
  6
CONTINUOUS
 10
35.000000
 20
32.250000
 30
0.000000
 11
35.000000
 21
28.250000
 31
0.000000
  0
ARC
  8
1
 62
     7
  6
CONTINUOUS
 10
34.750000
 20
32.250000
 30
0.000000
 40
0.250000
 50
0.000000
 51
89.999997
  0
LINE
  8
1
 62
     7
  6
CONTINUOUS
 10
30.750000
 20
32.500000
 30
0.000000
 11
34.750000
 21
32.500000
 31
0.000000
  0
ARC
  8
1
 62
     7
  6
CONTINUOUS
 10
30.750000
 20
32.250000
 30
0.000000
 40
0.249999
 50
89.999997
 51
170.000119
  0
ARC
  8
1
 62
     7
  6
CONTINUOUS
 10
718.734314
 20
29.625000
 30
0.000000
 40
688.235687
 50
179.777849
 51
180.114474
  0
CIRCLE
  8
1
 62
     7
  6
CONTINUOUS
 10
31.246164
 20
28.500072
 30
0.000000
 40
0.124888
  0
LINE
  8
1
 62
     7
  6
CONTINUOUS
 10
36.269539
 20
27.509773
 30
0.000000
 11
32.269539
 21
27.509773
 31
0.000000
  0
ARC
  8
1
 62
     7
  6
CONTINUOUS
 10
36.269543
 20
27.259777
 30
0.000000
 40
0.249996
 50
359.999126
 51
450.000872
  0
LINE
  8
1
 62
     7
  6
CONTINUOUS
 10
36.519539
 20
26.009773
 30
0.000000
 11
36.519539
 21
27.259773
 31
0.000000
  0
LINE
  8
1
 62
     7
  6
CONTINUOUS
 10
39.591812
 20
24.472523
 30
0.000000
 11
36.519539
 21
26.009773
 31
0.000000
  0
ARC
  8
1
 62
     7
  6
CONTINUOUS
 10
39.461506
 20
24.260403
 30
0.000000
 40
0.248946
 50
331.129933
 51
418.437417
  0
LINE
  8
1
 62
     7
  6
CONTINUOUS
 10
39.644539
 20
24.134773
 30
0.000000
 11
39.679512
 21
24.140205
 31
0.000000
  0
LINE
  8
1
 62
     7
  6
CONTINUOUS
 10
38.519539
 20
24.134773
 30
0.000000
 11
39.644539
 21
24.134773
 31
0.000000
  0
LINE
  8
1
 62
     7
  6
CONTINUOUS
 10
34.542992
 20
24.134979
 30
0.000000
 11
38.519539
 21
24.134773
 31
0.000000
  0
LINE
  8
1
 62
     7
  6
CONTINUOUS
 10
28.894539
 20
24.135265
 30
0.000000
 11
34.542992
 21
24.134979
 31
0.000000
  0
LINE
  8
1
 62
     7
  6
CONTINUOUS
 10
28.859116
 20
24.139999
 30
0.000000
 11
28.894539
 21
24.135265
 31
0.000000
  0
ARC
  8
1
 62
     7
  6
CONTINUOUS
 10
29.078554
 20
24.259773
 30
0.000000
 40
0.249999
 50
116.565048
 51
208.626582
  0
LINE
  8
1
 62
     7
  6
CONTINUOUS
 10
32.019539
 20
26.009773
 30
0.000000
 11
28.966751
 21
24.483379
 31
0.000000
  0
LINE
  8
1
 62
     7
  6
CONTINUOUS
 10
32.019539
 20
27.259773
 30
0.000000
 11
32.019539
 21
26.009773
 31
0.000000
  0
ARC
  8
1
 62
     7
  6
CONTINUOUS
 10
32.269539
 20
27.259771
 30
0.000000
 40
0.250002
 50
89.999997
 51
179.999558
  0
CIRCLE
  8
1
 62
     7
  6
CONTINUOUS
 10
32.773926
 20
26.758951
 30
0.000000
 40
0.156173
  0
CIRCLE
  8
1
 62
     7
  6
CONTINUOUS
 10
34.246170
 20
28.499918
 30
0.000000
 40
0.124888
  0
LINE
  8
1
 62
     7
  6
CONTINUOUS
 10
40.526409
 20
28.262943
 30
0.000000
 11
35.526409
 21
28.262943
 31
0.000000
  0
LINE
  8
1
 62
     7
  6
CONTINUOUS
 10
40.526409
 20
32.012943
 30
0.000000
 11
40.526409
 21
28.262943
 31
0.000000
  0
ARC
  8
1
 62
     7
  6
CONTINUOUS
 10
40.276413
 20
32.012947
 30
0.000000
 40
0.249996
 50
359.999126
 51
450.000872
  0
LINE
  8
1
 62
     7
  6
CONTINUOUS
 10
35.776409
 20
32.262943
 30
0.000000
 11
40.276409
 21
32.262943
 31
0.000000
  0
ARC
  8
1
 62
     7
  6
CONTINUOUS
 10
35.776402
 20
32.012955
 30
0.000000
 40
0.249989
 50
89.998249
 51
170.002398
  0
ARC
  8
1
 62
     7
  6
CONTINUOUS
 10
681.208008
 20
29.512943
 30
0.000000
 40
645.682809
 50
179.774300
 51
180.110926
  0
CIRCLE
  8
1
 62
     7
  6
CONTINUOUS
 10
36.272427
 20
28.513765
 30
0.000000
 40
0.124888
  0
ARC
  8
1
 62
     7
  6
CONTINUOUS
 10
37.278774
 20
27.260880
 30
0.000000
 40
0.250000
 50
89.999123
 51
243.434561
  0
LINE
  8
1
 62
     7
  6
CONTINUOUS
 10
37.166969
 20
27.037273
 30
0.000000
 11
37.219757
 21
27.010880
 31
0.000000
  0
LINE
  8
1
 62
     7
  6
CONTINUOUS
 10
37.219757
 20
27.010880
 30
0.000000
 11
40.219757
 21
25.510880
 31
0.000000
  0
LINE
  8
1
 62
     7
  6
CONTINUOUS
 10
40.219757
 20
25.510880
 30
0.000000
 11
40.219757
 21
24.260880
 31
0.000000
  0
ARC
  8
1
 62
     7
  6
CONTINUOUS
 10
40.469765
 20
24.260885
 30
0.000000
 40
0.250008
 50
180.001316
 51
269.998254
  0
LINE
  8
1
 62
     7
  6
CONTINUOUS
 10
40.469757
 20
24.010880
 30
0.000000
 11
44.969757
 21
24.010880
 31
0.000000
  0
ARC
  8
1
 62
     7
  6
CONTINUOUS
 10
44.969749
 20
24.260885
 30
0.000000
 40
0.250006
 50
270.001751
 51
359.998689
  0
LINE
  8
1
 62
     7
  6
CONTINUOUS
 10
45.219757
 20
24.260880
 30
0.000000
 11
45.219757
 21
25.510880
 31
0.000000
  0
LINE
  8
1
 62
     7
  6
CONTINUOUS
 10
45.219757
 20
25.510880
 30
0.000000
 11
41.219757
 21
27.510880
 31
0.000000
  0
LINE
  8
1
 62
     7
  6
CONTINUOUS
 10
41.219757
 20
27.510880
 30
0.000000
 11
37.278778
 21
27.510880
 31
0.000000
  0
CIRCLE
  8
1
 62
     7
  6
CONTINUOUS
 10
35.774761
 20
26.759954
 30
0.000000
 40
0.156173
  0
CIRCLE
  8
1
 62
     7
  6
CONTINUOUS
 10
39.772495
 20
28.513668
 30
0.000000
 40
0.124888
  0
LINE
  8
1
 62
     7
  6
CONTINUOUS
 10
46.026409
 20
28.262943
 30
0.000000
 11
41.026409
 21
28.262943
 31
0.000000
  0
LINE
  8
1
 62
     7
  6
CONTINUOUS
 10
46.026409
 20
32.012943
 30
0.000000
 11
46.026409
 21
28.262943
 31
0.000000
  0
ARC
  8
1
 62
     7
  6
CONTINUOUS
 10
45.776413
 20
32.012947
 30
0.000000
 40
0.249996
 50
359.999126
 51
450.000872
  0
LINE
  8
1
 62
     7
  6
CONTINUOUS
 10
41.276409
 20
32.262943
 30
0.000000
 11
45.776409
 21
32.262943
 31
0.000000
  0
ARC
  8
1
 62
     7
  6
CONTINUOUS
 10
41.276402
 20
32.012955
 30
0.000000
 40
0.249989
 50
89.998249
 51
170.002398
  0
ARC
  8
1
 62
     7
  6
CONTINUOUS
 10
686.708008
 20
29.512943
 30
0.000000
 40
645.682809
 50
179.774300
 51
180.110926
  0
CIRCLE
  8
1
 62
     7
  6
CONTINUOUS
 10
41.772427
 20
28.513765
 30
0.000000
 40
0.124888
  0
CIRCLE
  8
1
 62
     7
  6
CONTINUOUS
 10
41.774258
 20
31.512474
 30
0.000000
 40
0.156108
  0
CIRCLE
  8
1
 62
     7
  6
CONTINUOUS
 10
39.774296
 20
31.512236
 30
0.000000
 40
0.156108
  0
CIRCLE
  8
1
 62
     7
  6
CONTINUOUS
 10
36.274258
 20
31.512474
 30
0.000000
 40
0.156108
  0
ARC
  8
1
 62
     7
  6
CONTINUOUS
 10
35.750000
 20
33.250000
 30
0.000000
 40
0.250000
 50
270.000003
 51
360.000000
  0
LINE
  8
1
 62
     7
  6
CONTINUOUS
 10
36.000000
 20
33.250000
 30
0.000000
 11
36.000000
 21
34.250000
 31
0.000000
  0
ARC
  8
1
 62
     7
  6
CONTINUOUS
 10
35.750000
 20
34.250000
 30
0.000000
 40
0.250000
 50
0.000000
 51
89.999997
  0
LINE
  8
1
 62
     7
  6
CONTINUOUS
 10
35.750000
 20
34.500000
 30
0.000000
 11
31.250000
 21
34.500000
 31
0.000000
  0
ARC
  8
1
 62
     7
  6
CONTINUOUS
 10
31.250000
 20
34.250000
 30
0.000000
 40
0.250000
 50
89.999997
 51
179.999995
  0
LINE
  8
1
 62
     7
  6
CONTINUOUS
 10
31.000000
 20
34.250000
 30
0.000000
 11
31.000000
 21
33.250000
 31
0.000000
  0
ARC
  8
1
 62
     7
  6
CONTINUOUS
 10
31.250000
 20
33.250000
 30
0.000000
 40
0.250000
 50
179.999995
 51
270.000003
  0
LINE
  8
1
 62
     7
  6
CONTINUOUS
 10
31.250000
 20
33.000000
 30
0.000000
 11
35.750000
 21
33.000000
 31
0.000000
  0
CIRCLE
  8
1
 62
     7
  6
CONTINUOUS
 10
35.247765
 20
33.750484
 30
0.000000
 40
0.156107
  0
CIRCLE
  8
1
 62
     7
  6
CONTINUOUS
 10
34.248402
 20
31.750200
 30
0.000000
 40
0.156108
  0
CIRCLE
  8
1
 62
     7
  6
CONTINUOUS
 10
31.747629
 20
33.750408
 30
0.000000
 40
0.156107
  0
LINE
  8
1
 62
     7
  6
CONTINUOUS
 10
30.500000
 20
33.250000
 30
0.000000
 11
30.500000
 21
34.250000
 31
0.000000
  0
ARC
  8
1
 62
     7
  6
CONTINUOUS
 10
30.250000
 20
33.250000
 30
0.000000
 40
0.250000
 50
270.000003
 51
360.000000
  0
LINE
  8
1
 62
     7
  6
CONTINUOUS
 10
25.750000
 20
33.000000
 30
0.000000
 11
30.250000
 21
33.000000
 31
0.000000
  0
ARC
  8
1
 62
     7
  6
CONTINUOUS
 10
25.750000
 20
33.250000
 30
0.000000
 40
0.250000
 50
179.999995
 51
270.000003
  0
LINE
  8
1
 62
     7
  6
CONTINUOUS
 10
25.500000
 20
34.250000
 30
0.000000
 11
25.500000
 21
33.250000
 31
0.000000
  0
ARC
  8
1
 62
     7
  6
CONTINUOUS
 10
25.750000
 20
34.250000
 30
0.000000
 40
0.250000
 50
89.999997
 51
179.999995
  0
LINE
  8
1
 62
     7
  6
CONTINUOUS
 10
30.250000
 20
34.500000
 30
0.000000
 11
25.750000
 21
34.500000
 31
0.000000
  0
ARC
  8
1
 62
     7
  6
CONTINUOUS
 10
30.250000
 20
34.250000
 30
0.000000
 40
0.250000
 50
0.000000
 51
89.999997
  0
CIRCLE
  8
1
 62
     7
  6
CONTINUOUS
 10
29.747763
 20
33.750484
 30
0.000000
 40
0.156107
  0
CIRCLE
  8
1
 62
     7
  6
CONTINUOUS
 10
29.248405
 20
31.750200
 30
0.000000
 40
0.156108
  0
CIRCLE
  8
1
 62
     7
  6
CONTINUOUS
 10
31.248106
 20
31.750658
 30
0.000000
 40
0.156108
  0
CIRCLE
  8
1
 62
     7
  6
CONTINUOUS
 10
26.248106
 20
31.750658
 30
0.000000
 40
0.156108
  0
CIRCLE
  8
1
 62
     7
  6
CONTINUOUS
 10
26.247629
 20
33.750408
 30
0.000000
 40
0.156107
  0
CIRCLE
  8
1
 62
     7
  6
CONTINUOUS
 10
23.246977
 20
32.749828
 30
0.000000
 40
0.156110
  0
CIRCLE
  8
1
 62
     7
  6
CONTINUOUS
 10
20.246977
 20
32.749828
 30
0.000000
 40
0.156110
  0
CIRCLE
  8
1
 62
     7
  6
CONTINUOUS
 10
17.246977
 20
32.749828
 30
0.000000
 40
0.156110
  0
CIRCLE
  8
1
 62
     7
  6
CONTINUOUS
 10
14.246976
 20
32.749828
 30
0.000000
 40
0.156110
  0
CIRCLE
  8
1
 62
     7
  6
CONTINUOUS
 10
11.246976
 20
32.749828
 30
0.000000
 40
0.156110
  0
CIRCLE
  8
1
 62
     7
  6
CONTINUOUS
 10
8.246976
 20
32.749828
 30
0.000000
 40
0.156110
  0
CIRCLE
  8
1
 62
     7
  6
CONTINUOUS
 10
5.246976
 20
32.749828
 30
0.000000
 40
0.156110
  0
LINE
  8
1
 62
     7
  6
CONTINUOUS
 10
1.750000
 20
34.250000
 30
0.000000
 11
3.750000
 21
34.250000
 31
0.000000
  0
LINE
  8
1
 62
     7
  6
CONTINUOUS
 10
1.750000
 20
33.250000
 30
0.000000
 11
1.750000
 21
34.250000
 31
0.000000
  0
LINE
  8
1
 62
     7
  6
CONTINUOUS
 10
1.250000
 20
33.250000
 30
0.000000
 11
1.750000
 21
33.250000
 31
0.000000
  0
LINE
  8
1
 62
     7
  6
CONTINUOUS
 10
1.250000
 20
29.250000
 30
0.000000
 11
1.250000
 21
33.250000
 31
0.000000
  0
LINE
  8
1
 62
     7
  6
CONTINUOUS
 10
1.750000
 20
29.250000
 30
0.000000
 11
1.250000
 21
29.250000
 31
0.000000
  0
LINE
  8
1
 62
     7
  6
CONTINUOUS
 10
1.750000
 20
28.250000
 30
0.000000
 11
1.750000
 21
29.250000
 31
0.000000
  0
LINE
  8
1
 62
     7
  6
CONTINUOUS
 10
3.750000
 20
28.250000
 30
0.000000
 11
1.750000
 21
28.250000
 31
0.000000
  0
LINE
  8
1
 62
     7
  6
CONTINUOUS
 10
3.750000
 20
34.250000
 30
0.000000
 11
3.750000
 21
28.250000
 31
0.000000
  0
CIRCLE
  8
1
 62
     7
  6
CONTINUOUS
 10
2.246976
 20
32.749828
 30
0.000000
 40
0.156110
  0
CIRCLE
  8
1
 62
     7
  6
CONTINUOUS
 10
2.247135
 20
29.750654
 30
0.000000
 40
0.156108
  0
CIRCLE
  8
1
 62
     7
  6
CONTINUOUS
 10
5.247135
 20
29.750654
 30
0.000000
 40
0.156108
  0
CIRCLE
  8
1
 62
     7
  6
CONTINUOUS
 10
10.273925
 20
26.758951
 30
0.000000
 40
0.156173
  0
CIRCLE
  8
1
 62
     7
  6
CONTINUOUS
 10
13.274759
 20
26.759954
 30
0.000000
 40
0.156173
  0
ARC
  8
1
 62
     7
  6
CONTINUOUS
 10
14.778773
 20
27.260880
 30
0.000000
 40
0.250000
 50
89.998905
 51
243.434757
  0
LINE
  8
1
 62
     7
  6
CONTINUOUS
 10
18.719757
 20
27.510880
 30
0.000000
 11
14.778778
 21
27.510880
 31
0.000000
  0
LINE
  8
1
 62
     7
  6
CONTINUOUS
 10
22.719757
 20
25.510880
 30
0.000000
 11
18.719757
 21
27.510880
 31
0.000000
  0
LINE
  8
1
 62
     7
  6
CONTINUOUS
 10
22.719757
 20
24.260880
 30
0.000000
 11
22.719757
 21
25.510880
 31
0.000000
  0
ARC
  8
1
 62
     7
  6
CONTINUOUS
 10
22.469751
 20
24.260885
 30
0.000000
 40
0.250006
 50
270.001314
 51
359.998689
  0
LINE
  8
1
 62
     7
  6
CONTINUOUS
 10
17.969757
 20
24.010880
 30
0.000000
 11
22.469757
 21
24.010880
 31
0.000000
  0
ARC
  8
1
 62
     7
  6
CONTINUOUS
 10
17.969763
 20
24.260885
 30
0.000000
 40
0.250006
 50
180.001316
 51
269.998691
  0
LINE
  8
1
 62
     7
  6
CONTINUOUS
 10
17.719757
 20
25.510880
 30
0.000000
 11
17.719757
 21
24.260880
 31
0.000000
  0
LINE
  8
1
 62
     7
  6
CONTINUOUS
 10
14.719757
 20
27.010880
 30
0.000000
 11
17.719757
 21
25.510880
 31
0.000000
  0
LINE
  8
1
 62
     7
  6
CONTINUOUS
 10
14.666969
 20
27.037273
 30
0.000000
 11
14.719757
 21
27.010880
 31
0.000000
  0
LINE
  8
1
 62
     7
  6
CONTINUOUS
 10
30.794979
 20
23.296169
 30
0.000000
 11
16.234982
 21
23.296169
 31
0.000000
  0
LINE
  8
1
 62
     7
  6
CONTINUOUS
 10
30.794979
 20
20.736172
 30
0.000000
 11
30.794979
 21
23.296169
 31
0.000000
  0
LINE
  8
1
 62
     7
  6
CONTINUOUS
 10
16.234982
 20
20.736172
 30
0.000000
 11
30.794979
 21
20.736172
 31
0.000000
  0
LINE
  8
1
 62
     7
  6
CONTINUOUS
 10
16.234982
 20
23.296169
 30
0.000000
 11
16.234982
 21
20.736172
 31
0.000000
  0
CIRCLE
  8
1
 62
     7
  6
CONTINUOUS
 10
16.825518
 20
22.016069
 30
0.000000
 40
0.157421
  0
CIRCLE
  8
1
 62
     7
  6
CONTINUOUS
 10
14.950937
 20
22.016052
 30
0.000000
 40
0.157421
  0
LINE
  8
1
 62
     7
  6
CONTINUOUS
 10
30.794979
 20
20.046169
 30
0.000000
 11
16.234982
 21
20.046169
 31
0.000000
  0
LINE
  8
1
 62
     7
  6
CONTINUOUS
 10
30.794979
 20
17.486172
 30
0.000000
 11
30.794979
 21
20.046169
 31
0.000000
  0
LINE
  8
1
 62
     7
  6
CONTINUOUS
 10
16.234982
 20
17.486172
 30
0.000000
 11
30.794979
 21
17.486172
 31
0.000000
  0
LINE
  8
1
 62
     7
  6
CONTINUOUS
 10
16.234982
 20
20.046169
 30
0.000000
 11
16.234982
 21
17.486172
 31
0.000000
  0
CIRCLE
  8
1
 62
     7
  6
CONTINUOUS
 10
16.825518
 20
18.766069
 30
0.000000
 40
0.157421
  0
CIRCLE
  8
1
 62
     7
  6
CONTINUOUS
 10
14.950937
 20
18.766052
 30
0.000000
 40
0.157421
  0
LINE
  8
1
 62
     7
  6
CONTINUOUS
 10
30.794979
 20
16.796169
 30
0.000000
 11
16.234982
 21
16.796169
 31
0.000000
  0
LINE
  8
1
 62
     7
  6
CONTINUOUS
 10
30.794979
 20
14.236171
 30
0.000000
 11
30.794979
 21
16.796169
 31
0.000000
  0
LINE
  8
1
 62
     7
  6
CONTINUOUS
 10
16.234982
 20
14.236171
 30
0.000000
 11
30.794979
 21
14.236171
 31
0.000000
  0
LINE
  8
1
 62
     7
  6
CONTINUOUS
 10
16.234982
 20
16.796169
 30
0.000000
 11
16.234982
 21
14.236171
 31
0.000000
  0
CIRCLE
  8
1
 62
     7
  6
CONTINUOUS
 10
16.825518
 20
15.516069
 30
0.000000
 40
0.157421
  0
CIRCLE
  8
1
 62
     7
  6
CONTINUOUS
 10
14.950937
 20
15.516052
 30
0.000000
 40
0.157421
  0
LINE
  8
1
 62
     7
  6
CONTINUOUS
 10
18.250000
 20
8.500000
 30
0.000000
 11
18.250000
 21
12.500000
 31
0.000000
  0
LINE
  8
1
 62
     7
  6
CONTINUOUS
 10
18.750000
 20
8.500000
 30
0.000000
 11
18.250000
 21
8.500000
 31
0.000000
  0
LINE
  8
1
 62
     7
  6
CONTINUOUS
 10
18.750000
 20
7.500000
 30
0.000000
 11
18.750000
 21
8.500000
 31
0.000000
  0
LINE
  8
1
 62
     7
  6
CONTINUOUS
 10
34.250000
 20
7.500000
 30
0.000000
 11
18.750000
 21
7.500000
 31
0.000000
  0
LINE
  8
1
 62
     7
  6
CONTINUOUS
 10
34.250000
 20
8.500000
 30
0.000000
 11
34.250000
 21
7.500000
 31
0.000000
  0
LINE
  8
1
 62
     7
  6
CONTINUOUS
 10
34.750000
 20
8.500000
 30
0.000000
 11
34.250000
 21
8.500000
 31
0.000000
  0
LINE
  8
1
 62
     7
  6
CONTINUOUS
 10
34.750000
 20
12.500000
 30
0.000000
 11
34.750000
 21
8.500000
 31
0.000000
  0
LINE
  8
1
 62
     7
  6
CONTINUOUS
 10
34.250000
 20
12.500000
 30
0.000000
 11
34.750000
 21
12.500000
 31
0.000000
  0
LINE
  8
1
 62
     7
  6
CONTINUOUS
 10
34.250000
 20
13.500000
 30
0.000000
 11
34.250000
 21
12.500000
 31
0.000000
  0
LINE
  8
1
 62
     7
  6
CONTINUOUS
 10
18.750000
 20
13.500000
 30
0.000000
 11
34.250000
 21
13.500000
 31
0.000000
  0
LINE
  8
1
 62
     7
  6
CONTINUOUS
 10
18.750000
 20
12.500000
 30
0.000000
 11
18.750000
 21
13.500000
 31
0.000000
  0
LINE
  8
1
 62
     7
  6
CONTINUOUS
 10
18.250000
 20
12.500000
 30
0.000000
 11
18.750000
 21
12.500000
 31
0.000000
  0
CIRCLE
  8
1
 62
     7
  6
CONTINUOUS
 10
19.245571
 20
12.000485
 30
0.000000
 40
0.156109
  0
CIRCLE
  8
1
 62
     7
  6
CONTINUOUS
 10
16.495554
 20
11.999709
 30
0.000000
 40
0.156109
  0
CIRCLE
  8
1
 62
     7
  6
CONTINUOUS
 10
16.496737
 20
9.000924
 30
0.000000
 40
0.156109
  0
LINE
  8
1
 62
     7
  6
CONTINUOUS
 10
18.750000
 20
6.000000
 30
0.000000
 11
18.750000
 21
7.000000
 31
0.000000
  0
LINE
  8
1
 62
     7
  6
CONTINUOUS
 10
18.250000
 20
6.000000
 30
0.000000
 11
18.750000
 21
6.000000
 31
0.000000
  0
LINE
  8
1
 62
     7
  6
CONTINUOUS
 10
18.250000
 20
2.000000
 30
0.000000
 11
18.250000
 21
6.000000
 31
0.000000
  0
LINE
  8
1
 62
     7
  6
CONTINUOUS
 10
18.750000
 20
2.000000
 30
0.000000
 11
18.250000
 21
2.000000
 31
0.000000
  0
LINE
  8
1
 62
     7
  6
CONTINUOUS
 10
18.750000
 20
1.000000
 30
0.000000
 11
18.750000
 21
2.000000
 31
0.000000
  0
LINE
  8
1
 62
     7
  6
CONTINUOUS
 10
34.250000
 20
1.000000
 30
0.000000
 11
18.750000
 21
1.000000
 31
0.000000
  0
LINE
  8
1
 62
     7
  6
CONTINUOUS
 10
34.250000
 20
2.000000
 30
0.000000
 11
34.250000
 21
1.000000
 31
0.000000
  0
LINE
  8
1
 62
     7
  6
CONTINUOUS
 10
34.750000
 20
2.000000
 30
0.000000
 11
34.250000
 21
2.000000
 31
0.000000
  0
LINE
  8
1
 62
     7
  6
CONTINUOUS
 10
34.750000
 20
6.000000
 30
0.000000
 11
34.750000
 21
2.000000
 31
0.000000
  0
LINE
  8
1
 62
     7
  6
CONTINUOUS
 10
34.250000
 20
6.000000
 30
0.000000
 11
34.750000
 21
6.000000
 31
0.000000
  0
LINE
  8
1
 62
     7
  6
CONTINUOUS
 10
34.250000
 20
7.000000
 30
0.000000
 11
34.250000
 21
6.000000
 31
0.000000
  0
LINE
  8
1
 62
     7
  6
CONTINUOUS
 10
18.750000
 20
7.000000
 30
0.000000
 11
34.250000
 21
7.000000
 31
0.000000
  0
CIRCLE
  8
1
 62
     7
  6
CONTINUOUS
 10
19.245571
 20
5.500485
 30
0.000000
 40
0.156109
  0
CIRCLE
  8
1
 62
     7
  6
CONTINUOUS
 10
16.495554
 20
5.499709
 30
0.000000
 40
0.156109
  0
CIRCLE
  8
1
 62
     7
  6
CONTINUOUS
 10
16.496737
 20
2.500925
 30
0.000000
 40
0.156109
  0
CIRCLE
  8
1
 62
     7
  6
CONTINUOUS
 10
19.246977
 20
2.499829
 30
0.000000
 40
0.156109
  0
LINE
  8
1
 62
     7
  6
CONTINUOUS
 10
25.000248
 20
4.027237
 30
0.000000
 11
25.002224
 21
4.081676
 31
0.000000
  0
LINE
  8
1
 62
     7
  6
CONTINUOUS
 10
25.002224
 20
4.081676
 30
0.000000
 11
25.007004
 21
4.142601
 31
0.000000
  0
ARC
  8
1
 62
     7
  6
CONTINUOUS
 10
26.499926
 20
3.997299
 30
0.000000
 40
1.499976
 50
178.856364
 51
534.441069
  0
CIRCLE
  8
1
 62
     7
  6
CONTINUOUS
 10
19.246977
 20
8.999829
 30
0.000000
 40
0.156109
  0
LINE
  8
1
 62
     7
  6
CONTINUOUS
 10
25.000248
 20
10.527237
 30
0.000000
 11
25.002224
 21
10.581676
 31
0.000000
  0
LINE
  8
1
 62
     7
  6
CONTINUOUS
 10
25.002224
 20
10.581676
 30
0.000000
 11
25.007004
 21
10.642601
 31
0.000000
  0
ARC
  8
1
 62
     7
  6
CONTINUOUS
 10
26.499926
 20
10.497299
 30
0.000000
 40
1.499976
 50
178.856364
 51
534.441069
  0
CIRCLE
  8
1
 62
     7
  6
CONTINUOUS
 10
30.200937
 20
15.516052
 30
0.000000
 40
0.157421
  0
LINE
  8
1
 62
     7
  6
CONTINUOUS
 10
31.484982
 20
16.796169
 30
0.000000
 11
31.484982
 21
14.236171
 31
0.000000
  0
LINE
  8
1
 62
     7
  6
CONTINUOUS
 10
46.044979
 20
16.796169
 30
0.000000
 11
31.484982
 21
16.796169
 31
0.000000
  0
LINE
  8
1
 62
     7
  6
CONTINUOUS
 10
46.044979
 20
14.236171
 30
0.000000
 11
46.044979
 21
16.796169
 31
0.000000
  0
LINE
  8
1
 62
     7
  6
CONTINUOUS
 10
31.484982
 20
14.236171
 30
0.000000
 11
46.044979
 21
14.236171
 31
0.000000
  0
CIRCLE
  8
1
 62
     7
  6
CONTINUOUS
 10
32.075516
 20
15.516069
 30
0.000000
 40
0.157422
  0
LINE
  8
1
 62
     7
  6
CONTINUOUS
 10
31.484982
 20
20.046169
 30
0.000000
 11
31.484982
 21
17.486172
 31
0.000000
  0
LINE
  8
1
 62
     7
  6
CONTINUOUS
 10
46.044979
 20
20.046169
 30
0.000000
 11
31.484982
 21
20.046169
 31
0.000000
  0
LINE
  8
1
 62
     7
  6
CONTINUOUS
 10
46.044979
 20
17.486172
 30
0.000000
 11
46.044979
 21
20.046169
 31
0.000000
  0
LINE
  8
1
 62
     7
  6
CONTINUOUS
 10
31.484982
 20
17.486172
 30
0.000000
 11
46.044979
 21
17.486172
 31
0.000000
  0
CIRCLE
  8
1
 62
     7
  6
CONTINUOUS
 10
32.075516
 20
18.766069
 30
0.000000
 40
0.157422
  0
CIRCLE
  8
1
 62
     7
  6
CONTINUOUS
 10
30.200937
 20
18.766052
 30
0.000000
 40
0.157421
  0
LINE
  8
1
 62
     7
  6
CONTINUOUS
 10
31.484982
 20
23.296169
 30
0.000000
 11
31.484982
 21
20.736172
 31
0.000000
  0
LINE
  8
1
 62
     7
  6
CONTINUOUS
 10
46.044979
 20
23.296169
 30
0.000000
 11
31.484982
 21
23.296169
 31
0.000000
  0
LINE
  8
1
 62
     7
  6
CONTINUOUS
 10
46.044979
 20
20.736172
 30
0.000000
 11
46.044979
 21
23.296169
 31
0.000000
  0
LINE
  8
1
 62
     7
  6
CONTINUOUS
 10
31.484982
 20
20.736172
 30
0.000000
 11
46.044979
 21
20.736172
 31
0.000000
  0
CIRCLE
  8
1
 62
     7
  6
CONTINUOUS
 10
32.075516
 20
22.016069
 30
0.000000
 40
0.157422
  0
CIRCLE
  8
1
 62
     7
  6
CONTINUOUS
 10
30.200937
 20
22.016052
 30
0.000000
 40
0.157421
  0
CIRCLE
  8
1
 62
     7
  6
CONTINUOUS
 10
27.723652
 20
24.761696
 30
0.000000
 40
0.156173
  0
CIRCLE
  8
1
 62
     7
  6
CONTINUOUS
 10
24.223415
 20
24.761484
 30
0.000000
 40
0.156173
  0
CIRCLE
  8
1
 62
     7
  6
CONTINUOUS
 10
21.974241
 20
24.760736
 30
0.000000
 40
0.156173
  0
CIRCLE
  8
1
 62
     7
  6
CONTINUOUS
 10
18.473591
 20
24.759670
 30
0.000000
 40
0.156173
  0
ARC
  8
1
 62
     7
  6
CONTINUOUS
 10
9.249926
 20
10.497299
 30
0.000000
 40
1.499976
 50
178.856364
 51
534.441069
  0
LINE
  8
1
 62
     7
  6
CONTINUOUS
 10
7.750248
 20
10.527237
 30
0.000000
 11
7.752224
 21
10.581676
 31
0.000000
  0
LINE
  8
1
 62
     7
  6
CONTINUOUS
 10
7.752224
 20
10.581676
 30
0.000000
 11
7.757004
 21
10.642601
 31
0.000000
  0
LINE
  8
1
 62
     7
  6
CONTINUOUS
 10
7.752224
 20
4.081676
 30
0.000000
 11
7.757004
 21
4.142601
 31
0.000000
  0
LINE
  8
1
 62
     7
  6
CONTINUOUS
 10
7.750248
 20
4.027237
 30
0.000000
 11
7.752224
 21
4.081676
 31
0.000000
  0
ARC
  8
1
 62
     7
  6
CONTINUOUS
 10
9.249926
 20
3.997299
 30
0.000000
 40
1.499976
 50
178.856364
 51
534.441069
  0
CIRCLE
  8
1
 62
     7
  6
CONTINUOUS
 10
33.745552
 20
5.499709
 30
0.000000
 40
0.156109
  0
LINE
  8
1
 62
     7
  6
CONTINUOUS
 10
35.580605
 20
9.438306
 30
0.000000
 11
35.580605
 21
5.500806
 31
0.000000
  0
LINE
  8
1
 62
     7
  6
CONTINUOUS
 10
39.518105
 20
9.438306
 30
0.000000
 11
35.580605
 21
9.438306
 31
0.000000
  0
LINE
  8
1
 62
     7
  6
CONTINUOUS
 10
39.518105
 20
5.500806
 30
0.000000
 11
39.518105
 21
9.438306
 31
0.000000
  0
LINE
  8
1
 62
     7
  6
CONTINUOUS
 10
35.580605
 20
5.500806
 30
0.000000
 11
39.518105
 21
5.500806
 31
0.000000
  0
LINE
  8
1
 62
     7
  6
CONTINUOUS
 10
39.518105
 20
4.938306
 30
0.000000
 11
35.580605
 21
4.938306
 31
0.000000
  0
LINE
  8
1
 62
     7
  6
CONTINUOUS
 10
39.518105
 20
1.000806
 30
0.000000
 11
39.518105
 21
4.938306
 31
0.000000
  0
LINE
  8
1
 62
     7
  6
CONTINUOUS
 10
35.580605
 20
1.000806
 30
0.000000
 11
39.518105
 21
1.000806
 31
0.000000
  0
LINE
  8
1
 62
     7
  6
CONTINUOUS
 10
35.580605
 20
4.938306
 30
0.000000
 11
35.580605
 21
1.000806
 31
0.000000
  0
ARC
  8
1
 62
     7
  6
CONTINUOUS
 10
37.550144
 20
2.968945
 30
0.000000
 40
1.499985
 50
91.780595
 51
449.545517
  0
LINE
  8
1
 62
     7
  6
CONTINUOUS
 10
37.513535
 20
4.468321
 30
0.000000
 11
37.562042
 21
4.468883
 31
0.000000
  0
LINE
  8
1
 62
     7
  6
CONTINUOUS
 10
37.503536
 20
4.468205
 30
0.000000
 11
37.513535
 21
4.468321
 31
0.000000
  0
LINE
  8
1
 62
     7
  6
CONTINUOUS
 10
44.018105
 20
4.938306
 30
0.000000
 11
40.080605
 21
4.938306
 31
0.000000
  0
LINE
  8
1
 62
     7
  6
CONTINUOUS
 10
44.018105
 20
1.000806
 30
0.000000
 11
44.018105
 21
4.938306
 31
0.000000
  0
LINE
  8
1
 62
     7
  6
CONTINUOUS
 10
40.080605
 20
1.000806
 30
0.000000
 11
44.018105
 21
1.000806
 31
0.000000
  0
LINE
  8
1
 62
     7
  6
CONTINUOUS
 10
40.080605
 20
4.938306
 30
0.000000
 11
40.080605
 21
1.000806
 31
0.000000
  0
LINE
  8
1
 62
     7
  6
CONTINUOUS
 10
40.080605
 20
9.438306
 30
0.000000
 11
40.080605
 21
5.500806
 31
0.000000
  0
LINE
  8
1
 62
     7
  6
CONTINUOUS
 10
44.018105
 20
9.438306
 30
0.000000
 11
40.080605
 21
9.438306
 31
0.000000
  0
LINE
  8
1
 62
     7
  6
CONTINUOUS
 10
44.018105
 20
5.500806
 30
0.000000
 11
44.018105
 21
9.438306
 31
0.000000
  0
LINE
  8
1
 62
     7
  6
CONTINUOUS
 10
40.080605
 20
5.500806
 30
0.000000
 11
44.018105
 21
5.500806
 31
0.000000
  0
ARC
  8
1
 62
     7
  6
CONTINUOUS
 10
42.050144
 20
2.968945
 30
0.000000
 40
1.499985
 50
91.780595
 51
449.545517
  0
LINE
  8
1
 62
     7
  6
CONTINUOUS
 10
42.013535
 20
4.468321
 30
0.000000
 11
42.062042
 21
4.468883
 31
0.000000
  0
LINE
  8
1
 62
     7
  6
CONTINUOUS
 10
42.003536
 20
4.468205
 30
0.000000
 11
42.013535
 21
4.468321
 31
0.000000
  0
LINE
  8
1
 62
     7
  6
CONTINUOUS
 10
42.003536
 20
8.968205
 30
0.000000
 11
42.013535
 21
8.968321
 31
0.000000
  0
LINE
  8
1
 62
     7
  6
CONTINUOUS
 10
42.013535
 20
8.968321
 30
0.000000
 11
42.062042
 21
8.968883
 31
0.000000
  0
ARC
  8
1
 62
     7
  6
CONTINUOUS
 10
42.050144
 20
7.468945
 30
0.000000
 40
1.499985
 50
91.780595
 51
449.545517
  0
LINE
  8
1
 62
     7
  6
CONTINUOUS
 10
45.838871
 20
10.005440
 30
0.000000
 11
41.338871
 21
10.005440
 31
0.000000
  0
ARC
  8
1
 62
     7
  6
CONTINUOUS
 10
45.838879
 20
10.255429
 30
0.000000
 40
0.249989
 50
269.998254
 51
350.002188
  0
ARC
  8
1
 62
     7
  6
CONTINUOUS
 10
-345.790009
 20
12.009886
 30
0.000000
 40
391.879204
 50
359.737138
 51
360.073754
  0
LINE
  8
1
 62
     7
  6
CONTINUOUS
 10
46.088871
 20
13.505440
 30
0.000000
 11
46.088871
 21
12.514332
 31
0.000000
  0
LINE
  8
1
 62
     7
  6
CONTINUOUS
 10
43.492302
 20
13.505440
 30
0.000000
 11
46.088871
 21
13.505440
 31
0.000000
  0
LINE
  8
1
 62
     7
  6
CONTINUOUS
 10
43.461948
 20
13.505413
 30
0.000000
 11
43.492302
 21
13.505440
 31
0.000000
  0
LINE
  8
1
 62
     7
  6
CONTINUOUS
 10
43.443069
 20
13.505440
 30
0.000000
 11
43.461948
 21
13.505413
 31
0.000000
  0
LINE
  8
1
 62
     7
  6
CONTINUOUS
 10
41.088871
 20
13.505440
 30
0.000000
 11
43.443069
 21
13.505440
 31
0.000000
  0
LINE
  8
1
 62
     7
  6
CONTINUOUS
 10
41.088871
 20
10.255440
 30
0.000000
 11
41.088871
 21
13.505440
 31
0.000000
  0
ARC
  8
1
 62
     7
  6
CONTINUOUS
 10
41.338867
 20
10.255435
 30
0.000000
 40
0.249995
 50
179.998902
 51
270.000877
  0
ARC
  8
1
 62
     7
  6
CONTINUOUS
 10
40.338879
 20
10.255429
 30
0.000000
 40
0.249989
 50
269.998254
 51
350.002188
  0
LINE
  8
1
 62
     7
  6
CONTINUOUS
 10
40.338871
 20
10.005440
 30
0.000000
 11
35.838871
 21
10.005440
 31
0.000000
  0
ARC
  8
1
 62
     7
  6
CONTINUOUS
 10
35.838867
 20
10.255435
 30
0.000000
 40
0.249995
 50
179.998902
 51
270.000877
  0
LINE
  8
1
 62
     7
  6
CONTINUOUS
 10
35.588871
 20
10.255440
 30
0.000000
 11
35.588871
 21
13.505440
 31
0.000000
  0
LINE
  8
1
 62
     7
  6
CONTINUOUS
 10
35.588871
 20
13.505440
 30
0.000000
 11
37.943069
 21
13.505440
 31
0.000000
  0
LINE
  8
1
 62
     7
  6
CONTINUOUS
 10
37.943069
 20
13.505440
 30
0.000000
 11
37.961948
 21
13.505413
 31
0.000000
  0
LINE
  8
1
 62
     7
  6
CONTINUOUS
 10
37.961948
 20
13.505413
 30
0.000000
 11
37.992302
 21
13.505440
 31
0.000000
  0
LINE
  8
1
 62
     7
  6
CONTINUOUS
 10
37.992302
 20
13.505440
 30
0.000000
 11
40.588871
 21
13.505440
 31
0.000000
  0
LINE
  8
1
 62
     7
  6
CONTINUOUS
 10
40.588871
 20
13.505440
 30
0.000000
 11
40.588871
 21
12.514332
 31
0.000000
  0
ARC
  8
1
 62
     7
  6
CONTINUOUS
 10
-351.290009
 20
12.009886
 30
0.000000
 40
391.879204
 50
359.737138
 51
360.073754
  0
CIRCLE
  8
1
 62
     7
  6
CONTINUOUS
 10
39.841763
 20
10.754978
 30
0.000000
 40
0.156085
  0
CIRCLE
  8
1
 62
     7
  6
CONTINUOUS
 10
41.842587
 20
10.755230
 30
0.000000
 40
0.156085
  0
CIRCLE
  8
1
 62
     7
  6
CONTINUOUS
 10
41.835880
 20
13.255440
 30
0.000000
 40
0.124847
  0
CIRCLE
  8
1
 62
     7
  6
CONTINUOUS
 10
39.836823
 20
13.256144
 30
0.000000
 40
0.124847
  0
CIRCLE
  8
1
 62
     7
  6
CONTINUOUS
 10
36.335880
 20
13.255440
 30
0.000000
 40
0.124847
  0
CIRCLE
  8
1
 62
     7
  6
CONTINUOUS
 10
36.342587
 20
10.755230
 30
0.000000
 40
0.156085
  0
ARC
  8
1
 62
     7
  6
CONTINUOUS
 10
37.550144
 20
7.468945
 30
0.000000
 40
1.499985
 50
91.780595
 51
449.545517
  0
LINE
  8
1
 62
     7
  6
CONTINUOUS
 10
37.513535
 20
8.968321
 30
0.000000
 11
37.562042
 21
8.968883
 31
0.000000
  0
LINE
  8
1
 62
     7
  6
CONTINUOUS
 10
37.503536
 20
8.968205
 30
0.000000
 11
37.513535
 21
8.968321
 31
0.000000
  0
CIRCLE
  8
1
 62
     7
  6
CONTINUOUS
 10
33.746735
 20
9.000924
 30
0.000000
 40
0.156109
  0
CIRCLE
  8
1
 62
     7
  6
CONTINUOUS
 10
33.745552
 20
11.999709
 30
0.000000
 40
0.156109
  0
CIRCLE
  8
1
 62
     7
  6
CONTINUOUS
 10
33.746735
 20
2.500925
 30
0.000000
 40
0.156109
  0
CIRCLE
  8
1
 62
     7
  6
CONTINUOUS
 10
45.341763
 20
10.754978
 30
0.000000
 40
0.156085
  0
CIRCLE
  8
1
 62
     7
  6
CONTINUOUS
 10
45.336823
 20
13.256144
 30
0.000000
 40
0.124847
  0
CIRCLE
  8
1
 62
     7
  6
CONTINUOUS
 10
45.450935
 20
15.516052
 30
0.000000
 40
0.157422
  0
CIRCLE
  8
1
 62
     7
  6
CONTINUOUS
 10
45.450935
 20
18.766052
 30
0.000000
 40
0.157422
  0
CIRCLE
  8
1
 62
     7
  6
CONTINUOUS
 10
45.450935
 20
22.016052
 30
0.000000
 40
0.157422
  0
CIRCLE
  8
1
 62
     7
  6
CONTINUOUS
 10
44.474243
 20
24.760736
 30
0.000000
 40
0.156173
  0
CIRCLE
  8
1
 62
     7
  6
CONTINUOUS
 10
40.973595
 20
24.759670
 30
0.000000
 40
0.156173
  0
CIRCLE
  8
1
 62
     7
  6
CONTINUOUS
 10
45.272495
 20
28.513668
 30
0.000000
 40
0.124888
  0
CIRCLE
  8
1
 62
     7
  6
CONTINUOUS
 10
45.274296
 20
31.512236
 30
0.000000
 40
0.156108
  0
ENDSEC
  0
EOF
